Taking too long? Close loading screen.

| Title     : Superman Is Dead – Jika Kami Bersama
| Format : mp3
| Size     : 3.606 kb


 
 
Chord and Tab Superman Is Dead - Jika Kami Bersama 
 
@INTRO
e|--------3-------------3-------------3-------------3--------|
B|----------3-------------3-------------3-------------3------|
G|------0-----0-------0-----0-------0-----0-------0-----0----|
D|--------------0-------------0-------------0-0-----------0--|
A|----------------2-------------3----------------------------|
E|--3--------------------------------------------------------|

e|--------3-------------3-------------3--------|
B|----------3-------------3-------------3------|
G|------0-----0-------0-----0-------0-----0----|
D|--------------0-------------0-------------0--|
A|----------------2-------------3--------------|
E|--3------------------------------------------|


@SOLO
e|--/7-7-7---------/7-7-7---------/7-7-7-------------10-10-10--|
B|-------------8--------------8--------------8---/12-----------|
G|---------9p7------------9p7------------9p7-------------------|
D|-------------------------------------------------------------|
A|-------------------------------------------------------------|
E|-------------------------------------------------------------|

e|--/7-7-7---------/7-7-7---------/7-7-7----------------10-10--|
B|-------------8--------------8--------------8---/12-12--------|
G|---------9p7------------9p7------------9p7-------------------|
D|-------------------------------------------------------------|
A|-------------------------------------------------------------|
E|-------------------------------------------------------------|

e|--------------------------------------------------------------------------|
B|--12-12-10-10-8-8-7-7-8-8-7-7-------------8-8-10-10-8-/12-12-12-12-12-12--|
G|------------------------------9-9-7-7-9-9---------------------------------|
D|--------------------------------------------------------------------------|
A|--------------------------------------------------------------------------|
E|--------------------------------------------------------------------------|

e|-----------------------------------------------------------------------|
B|--/12-12-12-12-12-12-12-12-12p10-10p8--10p8---8---10p8---8---10p8------|
G|--------------------------------------------9----------9----------7-9--|
D|-----------------------------------------------------------------------|
A|-----------------------------------------------------------------------|
E|-----------------------------------------------------------------------|


Intro
G Bm C D
G Bm C D

www.putublog.tk

G D C D
jika kami bersama nyalakan tanda bahaya
G D C D
jika kami berpesta hening akan terpecah
G D C D
aku, dia dan mereka memang gila memang beda
G D C D
tak perlu berpura-pura memang begini adanya

Em D Em D
dan kami di sini akan terus bernyanyi

G D C D
dan jika kami bersama nyalakan tanda bahaya
G D C D
musik akan menghentak, anda akan tersentak
G D C D
dan kami tahu engkau bosan dijejali rasa yang sama
G D C D
kami adalah kamu, muda, beda dan berbahaya

G Bm C D
G Bm C D

G D
lepaskan semua belenggu yang melingkari hidupmu
C D
berdiri tegak menantang di sana di garis depan
G D
aku berteriak lantang untuk jiwa yang hilang
C D
untuk mereka yang selalu kita singkirkan

www.putublog.tk

G D
ketika tiada tempat lagi untuk berlari
C D
ketika tiada orang yang tak kami peduli
G D
aku dan dia selalu menunggumu di sini
C D
angkat sekali lagi

Em D Em D
kami di sini akan terus bernyanyi

G D C D
dan jika kami bersama nyalakan tanda bahaya
G D C D
musik akan menghentak, anda akan tersentak
G D C D
aku, dia dan mereka memang gila memang beda
G D C D
aku adalah kamu, kita muda dan berbahaya

G Bm C D
G Bm C D
G Bm C D
G Bm C D

Em D Em D
kami di sini akan terus bernyanyi

G D C D
dan jika kami bersama nyalakan tanda bahaya
G D C D
musik akan menghentak, anda akan tersentak
G D C D
dan kami tahu engkau bosan dijejali rasa yang sama
G D C D
kami adalah kamu, muda, beda dan berbahaya

G D C D
dan jika kami bersama nyalakan tanda bahaya
G D C D
musik akan menghentak, anda akan tersentak
G D C D
dan kami tahu engkau bosan dijejali rasa yang sama
G D C D
kami adalah kamu, muda, beda dan berbahaya

www.putublog.tk

G D C D
G D C D
G D C D
G D C D
G

SALAM PB

3 Comments
  1. Putu Aditya 6 tahun ago

    Silahkan Bertanya jika ada yang kurang Jelas

  2. PutuBlog 6 tahun ago

    Teess

  3. PutuBlog 6 tahun ago

    @Putu Aditya Siph..

Leave a reply

Alamat email Anda tidak akan dipublikasikan. Ruas yang wajib ditandai *

*

© 2017 Aditya Website.

Contact     |     Terms & Conditions     |     Privacy Policy

Log in with your credentials

or    

Forgot your details?

Create Account